Three Miles Down

Music X Tabs [http://www.mxtabs.net]
------------------------------------------------------------------------------- 
3 Miles Down- Saves The Day 
------------------------------------------------------------------------------- 

By:bt12483@aol.com 

Chords Used: 
C G E B 
e|----3---------------------------------------------------------------------| 
B|-1--3-----1---------------------------------------------------------------| 
G|-0--0-----2---------------------------------------------------------------| 
D|-2--0--2--3---------------------------------------------------------------| 
A|-3--2--2--3---------------------------------------------------------------| 
E|----3--0------------------------------------------------------------------| 

C G E B C 
Oh great, here I go again. I'm stuck in this rut. 

.. G E B 
Not sure how to begin. Oh, should I tell you everything. 

C G E B C G B 
Oh, Feeling out of luck. So I won't see you soon. 

C G E B C G B 
Cuz I now it's too soon for you to see me. 

e|---0-----------------------------------------------------------------------| 
B|-----1---------------------------------------------------------------------| 
G|-0-----0-------------------------------------------------------------------| 
D|---------------------------------------------------------------------------| 
A|---------------------------------------------------------------------------| 
E|---------------------------------------------------------------------------| 

C G E B 
If this is the last thing you do just Tell me that it's ok for me 


C G E B 
To have these feeling for you and it's normal to want to call you 


C G E B C G B 
Oh, I'm dialing the phone, letting it ring for hours 


C G E B 
Pretending to hear your voice 


C G B G 
Why does my heart always beat before yours does? 

C G E 
After a while you can 

e|---------------------------------------------------------------------------| 
B|-1---1----1---1----1---1---------------------------------------------------| 
G|-0-0---0--0-0---0--0-0---0-------------------------------------------------| 
D|-2--------2--------2-------------------------------------------------------| 
A|-2--------2--------2-------------------------------------------------------| 
E|-0--------0--------0-------------------------------------------------------| 


B G C G E 
Make yourself believe in almost an - y - thing 

B G C 
Making myself be - lieve in you. 



-------------------------------------------------------------------------------