Hold

Hold
tabbed by whenaugustcame@yahoo.com

drop d tuning

e]--------------------------------------------------------------------------------------    *4
B]--------------------------------------------------------------------------------------
G]-------------------------------------------------------------------------------------
D]--4--33--44--44--44--33--68689-------------------------------------------
A]--4--44--66--22--44--44--68689-------------------------------------------
D]--4-------------------44-------68689-------------------------------------------

pre-chorus

e]--------------------------------------------------------------------------------------
B]--------------------------------------------------------------------------------------
G]-------------------------------------------------------------------------------------
D]-------------------------------------------------------------------------------------
A]--6666--9999--------------------------------------------------------------------
D]--6666--9999---------------------------------------------------------------------

chorus

e]--------------------------------------------------------------------------------------
B]--------------------------------------------------------------------------------------
G]---------4-----------------4--6----------------------------------------------------
D]--4--3--4--4--6--4--8--4--6----------------------------------------------------
A]--4--4--2--4--4--6--8--2--4----------------------------------------------------
D]--4---------4----------8-----------------------------------------------------------

the second verse has a 12 -string play along with this other part

e]--------------------------------------------------------------------------------------
B]--7--66--44--22--77-66-46467---------------------------------------------
G]--------------------------------------------------------------------------------------
D]--------------------------------------------------------------------------------------
A]-------------------------------------------------------------------------------------
D]-------------------------------------------------------------------------------------

===========================================================