Blindfolded

Music X Tabs [http://www.mxtabs.net]
------------------------------------------------------------------------------- 
BLINDFOLDED - Saves The Day 
------------------------------------------------------------------------------- 

By: beej (briandiiion@aol.com) 

* = let ring 
x = mute 
. = palm mute 

This is the right way, morons. Saves The Day still rocks even tho they 
are all the rage now. 
e|---------------------------------------------------------------------------| 
B|---------------------------------------------------------------------------| 
G|-----------------------------------5--5------------------------------------| 
D|-7*---5*---7*---3*---7*---5*---7*--5--5--5---------------------------------| 
A|-7*---5*---7*---3*---7*---5*---7*--3--2--5---------------------------------| 
E|-5*---3*---5*---1*---5*---3*---5*--------3---------------------------------| 

"now i've made the descision..." 
e|---------------------------------------------------------------------------| 
B|---------------------------------------------------------------------------| 
G|---------------------------------------------------------------------------| 
D|-777777777777---55555555555----333333333333333333333-----------------------| 
A|-777777777777---55555555555----333333333333333333333-----------------------| 
E|-555555555555---33333333333----111111111111111111111-----------------------| 

"and i dont have the right stuff.." 
e|---------------------------------------------------------------------------| 
B|---------------------------------------------------------------------------| 
G|---------------------------------------------------------------------------| 
D|7-7-7---5-5-5---xx-3-xx-3-xx-3-xx-3----------------------------------------| 
A|7-7-7---5-5-5---xx-3-xx-3-xx-3-xx-3----------------------------------------| 
E|5-5-5---3-3-3---xx-1-xx-1-xx-1-xx-1----------------------------------------| 

"i think that tonight ill sneak into your house..." 
e|---------------------------------------------------------------------------| 
B|---------------------------------------------------------------------------| 
G|---------------------5-55555-----------------------------------------------| 
D|-2222222---3-33333---5-55555---5-55555-------------------------------------| 
A|-2222222---3-33333---3-33333---5-55555-------------------------------------| 
E|-0000000---1-11111-------------3-33333-------------------------------------| 
....... ..... ..... ..... 

"and ill take you blindfolded, dancing onto bridges and youll say you dont want 
to be with me, no one ever does." 
e|---------------------------------------------------------------------------| 
B|---------------------------------------------------------------------------| 
G|---------------------5*----------------------------------------------------| 
D|-2222222---3-33333---5*----5*----------------------------------------------| 
A|-2222222---3-33333---3*----5*----------------------------------------------| 
E|-0000000---1-11111---------3*----------------------------------------------| 
...... ..... 

"no one ever thinks of me that way..." 
e|---------------------------------------------------------------------------| 
B|---------------------------------------------------------------------------| 
G|55555555-------------------------------------------------------------------| 
D|55555555--333333333--777777777--555555555----------------------------------| 
A|33333333--333333333--777777777--555555555----------------------------------| 
E|----------111111111--555555555--333333333----------------------------------| 

thats it, the rest is just repeats of above. this sounds great acoustic too. 
peace, ill be posting better versions of horribly tabbed songs in the future. 

-------------------------------------------------------------------------------