Handsome Boy

------------------------------------------------------------------------------- 
HANDSOME BOY - Saves The Day 
------------------------------------------------------------------------------- 

By: CaptainFlufflez (grapefruit0501@hotmail.com)
Taken from punkhardcore.com 

Intro Verse/Chorus 
E|------------------|-----|---------------------------------|----------------------------------|-----| 
B|------------(x3)--|-----|---------------------------(x2)--|----------------------------(x2)--|-----| 
G|------------------|-----|-------------5-5-5---------------|---------------8-8-8-8-8-8--------|-----| 
D|------8-----------|--8--|--8-8-8-8-8--5-5-5--6-6-6--------|--8-8-8-8-8-8--8-8-8-8-8-8--------|--8--| 
A|----8---8---------|--8--|--8-8-8-8-8--3-3-3--6-6-6--------|--8-8-8-8-8-8--6-6-6-6-6-6--------|--8--| 
E|--6---------------|--6--|--6-6-6-6-6---------4-4-4--------|--6-6-6-6-6-6---------------------|--6--| 

E|---------------------------------------------------|-----------------------------------------------------|--------| 
B|---------------------------------------------------|-----------------------------------------------(x2)--|--------| 
G|--5-5-5-5------------------------5-5-5-5-----------|----------------5-5-5-5--8-8-8-8---------------------|-----8--| 
D|--5-5-5-5--8-8-8-8--8-8-8-8-8-8--5-5-5-5--8-8-8-8--|--8-8-8--7-7-7--5-5-5-5--8-8-8-8--8-8-8-8-8-8--------|--8--8--| 
A|--3-3-3-3--6-6-6-6--8-8-8-8-8-8--3-3-3-3--6-6-6-6--|--8-8-8--7-7-7--3-3-3-3--6-6-6-6--8-8-8-8-8-8--------|--8--6--| 
E|-----------6-6-6-6--6-6-6-6-6-6-----------6-6-6-6--|--6-6-6--5-5-5--------------------6-6-6-6-6-6--------|--6-----| 

Outro 
E|----------------------------------------------------------------------------------------------------|| 
B|----------------------------------------------------------------------------------------------------|| 
G|--8-7----8-7----8-7----8-7-----10-8-7--5-7-8--10-8-7-----8-7----8-7----8-7----8-7-------------------|| 
D|------8------8------8------8-------------------------8-------8------8------8------8-----------8--8--|| 
A|-------------------------------------------------------------------------------------3/5-6/5--8--8--|| 
E|----------------------------------------------------------------------------------------------6--6--|| 

=========================================================================================================