Deciding

------------------------------------------------------------------------------- 
DECIDING - Saves The Day 
------------------------------------------------------------------------------- 

Tabbed by Jason Hebert (emokid2000@cs.com) 
Taken from punkhardcore.com

intro and verse 
e------------------------------------------------------------------------- 
B------------------------------------------------------------------------- 
G----------3--3--3--------------8--8--8--7--5--5--5--5-------------------- 
D-5--5--5--3--3--3--3--3--3--3--8--8--8--7--5--5--3--3-------------------- 
A-5--5--5--1--1--1--3--3--3--3--6--6--6--5--3--3-------------------------- 
E-3--3--3-----------1--1--1--1-------------------------------------------- 

at night...oh i dream of reasons... back to verse... 
e------------------------------------------------------------------------- 
B------------------------------------------------------------------------- 
G-5--5-----3--------------8-----8-----3-----------8----------------------- 
D-5--5-----3--------3-----8-----8-----3-----3-----8----------------------- 
A-3--3-----1--------3-----6-----6-----1-----3-----6----------------------- 
E-------------------1-----------------------1----------------------------- 

I'm offering you me right now... 
e------------------------------------------------------ 
B------------------------------------------------------ 
G----------3-----------8-----------3-----------8------- 
D----5-----3-----3-----8-----5-----3-----3-----8------- 
A----5-----1-----3-----6-----5-----1-----3-----6------- 
E----3-----------1-----------3-----------1------------- 

i won't have it... 
e--------------------------------------- 
B--------------------------------------- 
G---8-----------8----------------------- 
D---8-----3-----8-----8--8--8--7--3----- 
A---6-----3-----6-----8--8--8--7--3----- 
E---------1-----------6--6--6--5--1----- 

tonight keeps looking our way... 
e-------------------------------------- 
B-------------------------------------- 
G-------------8----------------------8- 
D-5-----3-----8--------5-----3-------8- 
A-5-----3-----6--------5-----3-------6- 
E-3-----1--------------3-----1--------- 

I feel just fine. 
e------------------------------------------------------------------------- 
B------------------------------------------------------------------------- 
G-------3----------------------------------------------------------------- 
D-5-----3-----3----------------------------------------------------------- 
A-5-----1-----3----------------------------------------------------------- 
E-3-----------1----------------------------------------------------------- 

-------------------------------------------------------------------------------