Nightingale

------------------------------------------------------------------------------- 
NIGHTINGALE - Saves The Day 
------------------------------------------------------------------------------- 

Taken from http://www.azchords.com/
By:Danny Bligh (hecklerdanny@aol.com) 

well, i got so many requests for this song that i just HAD to post it. it's right, 
and yes, it's complicated. it took me longer than probably any other std song did 
to learn. but it's right. trust me. you can find my other ACCURATE std tabs up on this 
site. have fun. 

*note.. there are 2 guitars in this song, im arranging it so you can play it on 
one guitar and it will sound EXACTLY the same, but that also means it's gonna be a 
little more complicated. just play it along to the cd and you'll see how it's right. 

intro 
e|---------------------------------------------------------------------------| 
B|---------------------------------------------------------------------------| 
G|---------------------------------------------------------------------------| 
D|--------4/6----------------------------------------------------------------| 
A|----------------9--7--6\---------------------------------------------------| 
E|--0--4-------0--------4\---------------------------------------------------| 

than play this for the verse part of "and i will kick.." when all the instruments 
come in. 
e|---------------------------------------------------------------------------| 
B|---------------------------------------------------------------------------| 
G|-----------4--4----(4)-----------------------------------------------------| 
D|--------4--x--x--1--4--6--2--1---------------------------------------------| 
A|-----2-----2--2--2--2--------2---------------------------------------------| 
E|--0--------0--0--4--0------------------------------------------------------| 

play this for the 2nd part of the verse 
e|---------------------------------------------------------------------------| 
B|-----------2--------2--------2-----------------4--------4--------4---------| 
G|--------------4--------4--------4-----------------4--------4--------4------| 
D|-----4--2--------2--------2--------2--6--2--1--------1--------1--------1---| 
A|--2------------------------------------------------------------------------| 
E|---------------------------------------------------------------------------| 

e|---------------------------------------------------------------------------| 
B|-----------2--------2--------2-----------------7---------------------------| 
G|--------------4--------4--------4-----------4--6---------------------------| 
D|-----4--2--------2--------2--------2--6--2--4--4---------------------------| 
A|--2-----------------------------------------x--4---------------------------| 
E|--------------------------------------------4------------------------------| 

chorus 
e|--0------------------------------------------------------------------------| 
B|--0--------------0---------------------------------------------------------| 
G|--1--4--3--4--3--1---------------------------------------------------------| 
D|--2--4--4--4--4--2---------------------------------------------------------| 
A|--2--2--4--x--x--2---------------------------------------------------------| 
E|--0--2--2--4--2--0---------------------------------------------------------| 

interlude 
e|---------------------------------------------------------------------------| 
B|--0------------------------------------------------------------------------| 
G|--1--4---------------------------------------------------------------------| 
D|--2--6---------------------------------------------------------------------| 
A|--2--6---------------------------------------------------------------------| 
E|--0--4---------------------------------------------------------------------| 

there you go. that should do it, i absolutely guarantee it's right, but good luck 
following along! have fun with it!