A Drag in D Flat

------------------------------------------------------------------------------- 
A DRAG IN D FLAT - Saves The Day 
------------------------------------------------------------------------------- 

Taken from http://www.azchords.com/
here is the CORRECT way to play this song. i've seen many tabs for it, and i JUST 
to post the correct way. no offense to anyone! if you want other correct ways i also 
put "at your funeral" and "sell my old clothes..." on this site. 

here you go, im not gonna write out every single little note because that would take 
me all night, but here is the jist of the song. it's in standard tuning, and they 
play some weird guitar chords, but here it is. 

intro/verse (play these chords right before he starts singing) 
------------------------------------------------------------------------------- 
--5---------------------------------------------------------------------------- 
--4--4------------------------------------------------------------------------- 
--2--4------------------------------------------------------------------------- 
--2--2------------------------------------------------------------------------- 
------------------------------------------------------------------------------- 

verse (yeah these chords are weird, play them and you'll see how it's right)there 
are little single note fills in here also, but they'd take me to long to write out, 
if you MUST have them feel free to email me and i'll send it to ya. :-) my email 
adress will be at the bottom) 
------------------------------------------------------------------------------- 
-----------5------------------------------------------------------------------- 
--4--4--4--4--4---------------------------------------------------------------- 
--2--x--2--2--4---------------------------------------------------------------- 
--4--2--0--2--2---------------------------------------------------------------- 
-----4------------------------------------------------------------------------- 

chorus 
0--0----0--0--0----0-----------0--0--0----0-----0--0--------------------------- 
5--5--4/5--5--5p4--0---------4/5--5--5p4--0-----0--0--------------------------- 
6--6-----------------------------------------4--2--4--------------------------- 
6--6------------------7--7\------------------4--2--4--------------------------- 
4--4------------------7--7\------------------2--0--2--------------------------- 
----------------------5--5\---------------------------------------------------- 

that should do it. and yeah, it's right, play it along to the cd. 

if you want any other punk songs or have corrections (which you shouldnt) haha, feel 
free to email me at hecklerdanny@aol.com and i'll get them to ya. 

-------------------------------------------------------------------------------