Always Ten Feet Tall

Music X Tabs [http://www.mxtabs.net]
------------------------------------------------------------------------------- 
ALWAYS TEN FEET TALL - Saves The Day 
------------------------------------------------------------------------------- 

Tabbed By: George Zalepa (monstour5@yahoo.com) 

N.B.> thanx to sean (allstarme545@aol.com) for the first version of this tab 

Note: Drop D Tuning (as most are) 
^= full bend (for those note bend the bottom note so it sounds like the top [a whole step]} 

intro: 
e|-----------------------------------------------0~--| 
B|-----------------------------7-----------------5~--| play verse chords PM's in background 
G|--9-7-6---6---6h7-6-6--------9^--9-7-6-----6-4-----| 
d|--------7---7---------7-7-7------------9-7---------| 
A|---------------------------------------------------| 
D|---------------------------------------------------| 

verse chords: 
e|-----------------------------------------------------| 
B|-----------------------------------------------------| 
G|-----------------------------------------------------| x2 
D|--7-7-7-7-7-7-7-7-7-7-7-7-7-7-7-7--4-4-4-4--0-0-0-0--| 
A|--7-7-7-7-7-7-7-7-7-7-7-7-7-7-7-7--4-4-4-4--0-0-0-0--| 
D|--7-7-7-7-7-7-7-7-7-7-7-7-7-7-7-7--4-4-4-4--0-0-0-0--| 
pm............................. ............... 

bridge A: 
e|----------(5)----------| <-- note in parentheses are the same note as the 7's 
B|-------------(5)-------| 
G|--2~~------*-----------| 
D|--2~~------7--*---7~~--| 
A|--0~~---------7---7~~--| 
E|------------------7~~--| 

repeat verse chords (no PM) x4 
repeat intro w/ bg chords 
repeat verse chords x2 PM'd 
repeat bridge A x1 
repeat verse chords (no PM) x4 

Bridge B: 
e|---------------------------------------------------------------------| 
B|---------------------------------------------------------------------| 
G|---------------------------11--9--7-------------------7-7-7--7-9-11--| 
D|--7~---2~---0~---7~---2~---11--9--7----7~---2~---0~---7-7-7--7-9-11--| 
A|--7~---2~---0~---7~---2~----9--7--5----7~---2~---0~---5-5-5--5-7--9--| 
D|--7~---2~---0~---7~---2~----0--0--0----7~---2~---0~---0-0-0--0-0--0--| 

Slow Part: 
e|----------------------------------------------------------------| 
B|----------------------------------------------------------------| 
G|----------------------------------------------------------------| x2 
D|--4-4-4-4-4-4-4-0-0-0-0-0-0-0--7-7-7-7-7-7-7-7-2-2-2-2-0-0-0-0--| 
A|--4-4-4-4-4-4-4-0-0-0-0-0-0-0--7-7-7-7-7-7-7-7-2-2-2-2-0-0-0-0--| 
D|--4-4-4-4-4-4-4-0-0-0-0-0-0-0--7-7-7-7-6-6-6-6-2-2-2-2-0-0-0-0--| 

e|----------------------------------------------------------------| 
B|----------------------------------------------------------------| x2 
G|----------------------------------------------------------------| 
D|--4-4-4---------0-0-0-0-0-0-0--7-7-7-7-7-7-7-7-2-2-2-2-0-0-0-0--| 
A|--4-4-4---------0-0-0-0-0-0-0--7-7-7-7-7-7-7-7-2-2-2-2-0-0-0-0--| 
D|--4-4-4---------0-0-0-0-0-0-0--7-7-7-7-6-6-6-6-2-2-2-2-0-0-0-0--| 

e|----------------------------------------------------------------| 
B|-----------------------------------*----------------------------| 
G|----------------------------------------------------------------| x2 
D|--4-4-4-4-4-4-4-0-0-0-0-0-0-0--7-7-7-7-7-7-7-7-2-2-2-2-0-0-0-0--| 
A|--4-4-4-4-4-4-4-0-0-0-0-0-0-0--7-7-7-7-7-7-7-7-2-2-2-2-0-0-0-0--| 
D|--4-4-4-4-4-4-4-0-0-0-0-0-0-0--7-7-7-7-6-6-6-6-2-2-2-2-0-0-0-0--| 

Fill over "*": 
E|---------------| 
B|--10\5---10\5--| That's it! 
G|--12^----12^---| Questions, Comments: monstour5@yahoo.com 
D|---------------| PS. the STD show in philly on the 16th rawked! :) 
A|---------------| 
D|---------------| 

-------------------------------------------------------------------------------